21 Januari 2018

Belajar Gitar Dari Lagu Dewa 19 Kangen (Ku Kan Datang)

Kangen (Ku Kan Datang) adalah sebuah lagu yang dipopulerkan oleh grup musik asal kota Surabaya yaitu Dewa 19 lewat album musik yang berjudul Dewa 19 yang dirilis pada 6 Januari 1992. Saat itu Dewa 19 tampil dengan formasi Ahmad Dhani (kibor, vokal tambahan, gitar tambahan), Andra Ramadhan (gitar utama), Erwin Prasetya (bass), Wawan Juniarso (drum) dan Ari Lasso (vokal utama).

Gambar Untuk Posting Belajar Gitar Dari Lagu Dewa 19 Kangen (Ku Kan Datang)
Sumber gambar : youtube.com

Berikut Lagu Dewa 19 Kangen (Ku Kan Datang)


Berikut tab gitar Kangen (Ku Kan Datang)

E||---------------0--L--------|-----------0--L-----------|
B||---------3-----------3--L--|--------3--------3-----3--|
G||*-----2-----2--------------|-----2--------------2-----|
D||*--0-----------------------|--------------------------|
A||---------------------------|--2-----------------------|
E||---------------------------|--------------------------|

--------------0---------|--------------2--0---------||
--------3----------3----|--------2-----------2------||
-----2-----2------------|-----2-----2-----------2--*||
------------------------|--------------------------*||
------------------------|--0------------------------||
--3---------------------|---------------------------||

---------------0--L--------|-----------0--L-----------|--------------0---------|
---------3-----------3--L--|--------3--------3-----3--|--------3----------3----|
*-----2-----2--------------|-----2--------------2-----|-----2-----2------------|
*--0-----------------------|--------------------------|------------------------|
---------------------------|--2-----------------------|------------------------|
---------------------------|--------------------------|--3---------------------|

--------------2--0---------||--------------0-----------|
--------2-----------2------||--------0--------0-----0--|
-----2-----2-----------2--*||-----------0--------0-----|
--------------------------*||-----2--------------------|
--0------------------------||--3-----------------------|
---------------------------||--------------------------|

-----------0--L-----------|--------------------0-----|
--------3--------3-----3--|--------3--------------3--|
-----2--------------2-----|-----2-----------2--------|
--------------------------|--------------------------|
--2-----------------------|--------------------------|
--------------------------|--2--------3--L-----------|

-----------0--L-----------|-----------0--0-----------|-------------------|
--------3--------3-----3--|--------2--------2-----2--|--2----------------|
-----2--------------2-----|-----0--------------0-----|--1----------------|
--------------------------|--2-----------------------|--2----------------|
--2-----------------------|--------------------------|-------------------|
--------------------------|--------------------------|-------------------|

|---------------0--L--------|-----------0--L-----------|
|---------3-----------3--L--|--------3--------3-----3--|
|*-----2-----2--------------|-----2--------------2-----|
|*--0-----------------------|--------------------------|
|---------------------------|--2-----------------------|
|---------------------------|--------------------------|

--------------0---------|--------------2--0---------||
--------3----------3----|--------2-----------2------||
-----2-----2------------|-----2-----2-----------2--*||
------------------------|--------------------------*||
------------------------|--0------------------------||
--3---------------------|---------------------------||

--------------0-----------|-----------0--L-----------|
--------0--------0-----0--|--------3--------3-----3--|
-----------0--------0-----|-----2--------------2-----|
-----2--------------------|--------------------------|
--3-----------------------|--2-----------------------|
--------------------------|--------------------------|

--------------------0-----|-----------0--L-----------|
--------3--------------3--|--------3--------3-----3--|
-----2-----------2--------|-----2--------------2-----|
--------------------------|--------------------------|
--------------------------|--2-----------------------|
--2--------3--L-----------|--------------------------|

--------------------0-----|-----------------0--------|
--------3--------------3--|--------------0-----0-----|
-----2-----------2--------|-----------0-----------0--|
--------------------------|--------2-----------------|
--------------------------|-----2--------------------|
--2--------3--L-----------|--0-----------------------|

---------------------------------|--------------0-----------|
---------------<>12--------------|--------3--------3-----3--|
---------------------<>12--------|-----2-----2--------2-----|
--2--L---------------------<>12--|--------------------------|
---------------------------------|--0-----------------------|
---------------------------------|--------------------------|

-----------0--0-----------||---------------2-----------|
--2-----2--------2-----2--||---------3--------3-----3--|
-----0--------------0-----||*-----2-----2--------2-----|
--2-----------------------||*--0-----------------------|
--------------------------||---------------------------|
--------------------------||---------------------------|

--------------2-----------|--------------3-----------|
--------3--------3-----3--|--------3--------3-----3--|
-----2-----2--------2-----|-----0-----0--------0-----|
--0-----------------------|--------------------------|
--------------------------|--------------------------|
--------------------------|--3-----------------------|

--------------0-----------|--------------2-----------|
--------2-----------2-----|-----------2-----2-----2--|
-----------2-----2-----2--|--------3-----------3-----|
-----2--------------------|-----4--------------------|
--0-----------------------|--2-----------------------|
--------------------------|--------------------------|